- Guitar Chords & Tabs for Hindi Songs: Ek Hasina Thi - Karz Tabs Complete & Accurate

Saturday, September 18, 2010

Ek Hasina Thi - Karz Tabs Complete & Accurate


This post contains the tabs for the song Ek Hasina Thi from the moive Karz starring Rishi Kapoor and sung by the legend Kishore Kumar. This is one of my favourite songs till date. I've put in huge efforts to come up with the tabs for the complete song. They sound good to me and think they are accurate. I would like to thank Baandbaja from IGT (Indian Guitar Tabs) for providing the scale of the song and the lead tabs which inspired me to work on the tabs for the entire song. Hope you would like it.

===============================
Movie : Karz (Old and Original)
Song: Ek Hasina Thi
Singer: Kishor Kumar
Tabber: Sanjiv Lavangare
===============================

E--------------------
B---4---3-----3------
G----------5----4----
D--------------------
A--------------------
E--------------------
Ik Hasinaa Thii

E---------------------
B---3-----------------
G------5---4---5------
D-----------------6---
A---------------------
E---------------------
Ik Diivanaa Thaa

E---------------------------------------------------
B---------------------------------------------------
G----------------5-5-4------5-4-5----7--8--10--8--
D----5-5h6p5---------------------------------------
A---------------------------------------------------
E---------------------------------------------------
Kyaa Umar.......Kyaa Samaa...Kyaa Zamaanaa thaa..aaaa...aaa...

Repeat the above twice.

E---------------------------------------
B---------------------------------------
G---------------------------------------
D---5-5-6h8-8-6-6-------3-3-3h6-6-5-5-
A---------------------------------------
E---------------------------------------
Ek Din Vo Mile.........Roz Milane Lage

E------------------------------------------
B------------------------------------------
G------------------------------------------
D---5-5-6h8-8-6-6-6h8------3-3-3h6-6-5-5-
A------------------------------------------
E------------------------------------------
Phir Muhabbat Huii........Bas Qayaamat Hui

E------------------------------------------
B------------------------------------------
G----5-4-5----7-7-8------5-4-5----7-7-8--
D------------------------------------------
A------------------------------------------
E------------------------------------------
Kho Gaye Tum Kahaan, Sun Ke Ye Daasataan

E------------------------------------------
B------------------------------------------
G----5-4-5----7-7-8------5-4-5----7-7-8--
D------------------------------------------
A------------------------------------------
E------------------------------------------
Log Hairaan Hain, Kyon Kii Anjaan Hain

E------------------------------------------------------
B---4--3-----------------------------------------------
G---------5---3---------5---8--8--5--3--1h3p1--0-------
D----------------6--6----------------------------------
A------------------------------------------------------
E------------------------------------------------------
Ishq Kii Vo Galii, Baat Jisakii Chalii

E------------------------------------------------------------------------------
B---3---3--4---3---3--4---3---3--4------------------3----------3---1h3-------
G-----5-----------5-----------5------5---5--5--2--5---4---4--5----------5-5--
D------------------------------------------------------------------------------
A------------------------------------------------------------------------------
E------------------------------------------------------------------------------
Us Galii MeiN Meraa Aanaa, Jaanaa Thaa.... Ik Hasiinaa Thii, Ik Diivaanaa Thaa...

E------------------------------------------------------------------------------
B---3---3--4---3---3--4---3---3--4------------------3----------3---1h3-------
G-----5-----------5-----------5------5---5--5--2--5---4---4--5----------5-5--
D------------------------------------------------------------------------------
A------------------------------------------------------------------------------
E------------------------------------------------------------------------------
Kyaa Umar thi, Kyaa Samaa tha, Kyaa Zamanaa Thaa...Ik Hasiinaa Thii, Ik Diivaanaa Thaa...

E-----------------------------------------------------------
B-----------------------------------------------------------
G-----------------------------------------------------------
D-----5-5-6-3----3-------5-5-6-3-----3-----5-5-6-3----3---
A---------------6--------------------6------------------6-------
E-----------------------------------------------------------
Us Hasiin Ne Kahaa, Us Hasiin Ne Kahaa, Suno Jaan-e-Vafaa

E------------------------------------------
B------------------------------------------
G------------------------------------------
D-----5-5-6-3----3-------5-5-6-3-----3---
A---------------6--------------------6--------
E------------------------------------------
Ye Falaq Ye Zamiin, Tere Bin Kuchh Nahiin

E---------------------------------------
B---------------------------------------
G----5-4-5----------5-4-5---------------
D-----------6-5-5-----------6-5-5-------
A---------------------------------------
E---------------------------------------
Tujhape Maratii Huun Main, Pyaar Karatii Huun Main

E---------------------------------------
B---------------------------------------
G----5-4-5----------5-4-5---------------
D-----------6-5-5-----------6-5-5-------
A---------------------------------------
E---------------------------------------
Baat Kuchh Aur Thii, Vo Nazar Chor Thii

E------------------------------------------------------
B---4--3-----------------------------------------------
G---------5---3---------5---8--8--5--3--1h3p1--0-----
D----------------6--6----------------------------------
A------------------------------------------------------
E------------------------------------------------------
Usake Dil Mein Chhupii, Chaahat Aur Garzii Thii

E------------------------------------------------------------------------------
B---3---3--4---3---3--4---3---3--4------------------3----------3---1h3-------
G-----5-----------5-----------5------5---5--5--2--5---4---4--5----------5-5--
D------------------------------------------------------------------------------
A------------------------------------------------------------------------------
E------------------------------------------------------------------------------
Pyaar Kaa, To Faqat, Ik Bahaanaa Thaa...Ik Hasiinaa Thii, Ik Diivaanaa Thaa....

E------------------------------------------------------------------------------
B---3---3--4---3---3--4---3---3--4------------------3----------3---1h3-------
G-----5-----------5-----------5------5---5--5--2--5---4---4--5----------5-5--
D------------------------------------------------------------------------------
A------------------------------------------------------------------------------
E------------------------------------------------------------------------------
Kyaa Umar thi, Kyaa Samaa tha, Kyaa Zamanaa Thaa...Ik Hasiinaa Thii, Ik Diivaanaa Thaa...

E--------------------------------------------------
B--------------------------------------------------
G--------------------------------------------------
D-------------------5-5-5-5-3---5-----------------
A-----3-3-3-6-5-6-------------6-------------------
E--------------------------------------------------
Bevafaa Yaar Ne, Apane Mahabuub Se

E--------------------------------------------------
B----4-4-4-3---3-----4p3-----4p3-----4p3---------
G-------------5-------------------------------------
D--------------------------------------------------
A--------------------------------------------------
E--------------------------------------------------
Aisaa Dhokhaa Kiyaa...Dhokhaa, Dhokhaa, Dhokhaa, Dhokhaa

E----------------------------------------------------------------------------
B----4-4-4-3---3-----4-4-4-4-3---3------------4p3-----4p3-----4p3-----4p3-
G-------------5------------------5---------------------------------------------
D----------------------------------------------------------------------------
A----------------------------------------------------------------------------
E----------------------------------------------------------------------------
Aisaa Dhokhaa Kiyaa, Zahar Usako Diyaa....Dhokhaa, Dhokhaa, Dhokhaa, Dhokhaa Dhokaaaaaaaaa

E------------------------------------------------------------------------------
B---3---3--4---3---3--4---3---3--4------------------3----------3---1h3-------
G-----5-----------5-----------5------5---5--5--2--5---4---4--5----------5-5--
D------------------------------------------------------------------------------
A------------------------------------------------------------------------------
E------------------------------------------------------------------------------
Roo roo roo roo...roo roo roo roo...roo roo roo roo rooooooo Roo roo roo roo roooooooo...ru ru ru rooo rooooo

E------------------------------------------------
B------------------------------------------------
G------------------------------------------------
D---------6----8-6-5-----------6----8-6-5--------
A----3-3-------------------3-3-------------------
E------------------------------------------------
Mar Gayaa, Vo JavaaN...Mar Gayaa, Vo JavaaN

E--------------------
B---4-3---3-3-4------
G-------5------------
D--------------------
A--------------------
E--------------------
Ab Suno Daasataa.N

E-------------------------------------------
B-------------------------------------------
G----5-5-4-4----------5-4-4-4--------------
D--------------5-6--------------5-5-----------
A-------------------------------------------
E-------------------------------------------
Janm Le Kar Kahin, Phir Vo Pahunchaa Vahin

E------------------------------------------
B------------------------------------------
G----5-5-4-4---------7-7-7-4-4------------
D--------------5-6----------------5-5--------
A------------------------------------------
E------------------------------------------
Shaql Anjaan Kii, Aqal Hairaan Kii

E------------------------------------------
B------------------------------------------
G----5-4-5----7-7-8------5-4-5----7-7-8--
D------------------------------------------
A------------------------------------------
E------------------------------------------
Saamanaa Jab Huaa, Phir Vahii Sab Huaa (twice)

E---------------------------------------------
B---3-3-3--1h3-1-1------3-3-3--1h3-1-1------
G---------------------------------------------
D---------------------------------------------
A---------------------------------------------
E---------------------------------------------
Usakaa Ye Farz Thaa, Usape Ye Qarz Thaa

E-----------------------------------------------
B---4-3----------------------------------------
G-------5--3--1-1-1-1h3-3-3-1-0---------------
D-----------------------------------------------
A-----------------------------------------------
E-----------------------------------------------
Farz Ko, Qarz Apanaa, Nibhaanaa Thaa

E------------------------------------------------------------------------------
B---3---3--4---3---3--4---3---3--4------------------3----------3---1h3-------
G-----5-----------5-----------5------5---5--5--2--5---4---4--5----------5-5--
D------------------------------------------------------------------------------
A------------------------------------------------------------------------------
E------------------------------------------------------------------------------
Laaaa...Laaaa....Laaaaa La la la la...la la la la.la la la la laaaaaaa La la la la laaaaaa..la la la laaaa.laaaa

10 comments:

saurabh said...

Friend,

Your tabs are awsome. I have played them and they are accurate. I wish you provide more for old famous songs like this. Thanks a bunch.

-saurabh

Sanjiv said...

@saurabh: Thanks buddy, I'll definately try to tab more old famous songs. Cheers!!!

Anonymous said...

nice one and accurate
thaanx buddy

Sanjiv said...

@jaan: Thanks buddy!!

Vishesh said...

superb..
U

Unknown said...

What the meaning of h and p

Sanjiv said...

h means 'hammer' while p means 'pull-off', you can google for more details.

Varun Sharma said...

awesome man.. u r too good.. u really are great...
keep this good work going...

Syed Zahid said...

Cords Plead

kushal said...

It is really very good thanks. Will u please provide your way of playing the above tab

Post a Comment