- Guitar Chords & Tabs for Hindi Songs: Surili Akhiyon Wale Chords - Veer

Thursday, December 2, 2010

Surili Akhiyon Wale Chords - Veer

This post contains the chords to play the song Surili Aakhiyon Wale sung by Rahat Fateh Ali Khan from the movie Veer. It's a very simple song to play on guitar. Hope you would like the chords....Enjoy!!!

Chord Positioning


       EADGBE
E022100
A002220
B224442
C#m446654
Bm224432


Strumming Pattern

D ==>Down Stroke
U ==>Up Stroke


DDUUD

Intro Lead

E--------------------------------------------------
B----7s9--9-12-----------12--------------------------
G----------------11--11--------9---9-8-11------9-11----
D---------------------------------------------------
A---------------------------------------------------
E---------------------------------------------------

E--------------------------------------------------
B----7s9--9-12-----------12--------------------------
G----------------11--11--------9---9-8-11--------------
D---------------------------------------------------
A---------------------------------------------------
E---------------------------------------------------

Play the above tabs twice

Mukhda

E..........B........E.........................B....
Surili akhiyo wale suna hai teri akhiyo se
E................A.............B...............E...
Behati hai ninde aur nindo me sapane
E...............B.....E........................B...
Kabhi to kinare pe utar mere sapano se
E...........A.............B...........E.
Aaja jamee pe aur mil ja kahi pe
E.............C#m........A.........B...
Mil ja kahi......o o o o o o o o o o o
...........E...................C#m...............A............E..
Mil ja kahi, samay se pare, samay se pare mil ja kahi
............Bm...........A.............E........B..
Tu bhi akhiyo se kabhi meri akhiyo ki sun


Antara

..............E...................A...................B.................E..
Jane tu kaha hai, udati hawa pe tere, pairo ke nisha dekhe
...............E...............................A...............B..................E..
dhunda hai jamee pe, chhaana hai falak pe, saare aasmaan dekhe
............E.................C#m.................A...........E..
Mil ja kahi, samay se pare, samay se pare mil ja kahi
............Bm...........A..............E.......B..
Tu bhi akhiyo se kabhi meri akhiyo ki sun

The same chord pattern continues through the rest of the song.

1 comments:

saumya kapoor said...

hey ur tabs nd chords r awsum...cn u pls tab "tu jane na"..plzzzzz....pls provide tabs nd nt d chords..

Post a Comment

There was an error in this gadget